ISO-10303-21;
HEADER;
FILE_DESCRIPTION (( 'STEP AP203' ),
    '1' );
FILE_NAME ('Q-AZHWP-10-980-M.STEP',
    '2020-12-22T09:06:13',
    ( '' ),
    ( '' ),
    'SwSTEP 2.0',
    'SolidWorks 2020',
    '' );
FILE_SCHEMA (( 'CONFIG_CONTROL_DESIGN' ));
ENDSEC;

DATA;
#1 = VERTEX_POINT ( 'NONE', #217 ) ;
#2 = DIRECTION ( 'NONE',  ( 0.000000000000000000, 0.000000000000000000, 1.000000000000000000 ) ) ;
#3 = DIRECTION ( 'NONE',  ( -1.000000000000000000, -0.000000000000000000, -0.000000000000000000 ) ) ;
#4 = CARTESIAN_POINT ( 'NONE',  ( 3.000000000000000000, 0.000000000000000000, 5.000000000000001776 ) ) ;
#5 = AXIS2_PLACEMENT_3D ( 'NONE', #197, #266, #143 ) ;
#6 = DIRECTION ( 'NONE',  ( 0.000000000000000000, 0.000000000000000000, 1.000000000000000000 ) ) ;
#7 = CC_DESIGN_DATE_AND_TIME_ASSIGNMENT ( #43, #119, ( #322 ) ) ;
#8 = DIRECTION ( 'NONE',  ( 0.000000000000000000, 0.000000000000000000, 1.000000000000000000 ) ) ;
#9 = APPROVAL_ROLE ( '' ) ;
#10 = DIRECTION ( 'NONE',  ( 1.000000000000000000, 0.000000000000000000, 0.000000000000000000 ) ) ;
#11 = CARTESIAN_POINT ( 'NONE',  ( 3.000000000000000000, 0.000000000000000000, 0.000000000000000000 ) ) ;
#12 = CALENDAR_DATE ( 2020, 22, 12 ) ;
#13 = DIRECTION ( 'NONE',  ( -1.000000000000000000, -0.000000000000000000, -0.000000000000000000 ) ) ;
#14 = FACE_OUTER_BOUND ( 'NONE', #47, .T. ) ;
#15 = VECTOR ( 'NONE', #125, 1000.000000000000000 ) ;
#16 = CC_DESIGN_SECURITY_CLASSIFICATION ( #322, ( #267 ) ) ;
#17 = PERSON_AND_ORGANIZATION ( #141, #251 ) ;
#18 = EDGE_CURVE ( 'NONE', #186, #97, #63, .T. ) ;
#19 = EDGE_LOOP ( 'NONE', ( #216, #129 ) ) ;
#20 = EDGE_CURVE ( 'NONE', #1, #137, #291, .T. ) ;
#21 = VECTOR ( 'NONE', #235, 1000.000000000000000 ) ;
#22 = ORIENTED_EDGE ( 'NONE', *, *, #296, .F. ) ;
#23 = PERSON_AND_ORGANIZATION_ROLE ( 'design_owner' ) ;
#24 = VECTOR ( 'NONE', #75, 1000.000000000000000 ) ;
#25 = CARTESIAN_POINT ( 'NONE',  ( -1.250000000000000222, 6.123233995736767268E-16, -5.000000000000000888 ) ) ;
#26 = ORIENTED_EDGE ( 'NONE', *, *, #58, .T. ) ;
#27 = PERSON_AND_ORGANIZATION_ROLE ( 'creator' ) ;
#28 = DIRECTION ( 'NONE',  ( -1.000000000000000000, -0.000000000000000000, -0.000000000000000000 ) ) ;
#29 = ORIENTED_EDGE ( 'NONE', *, *, #69, .F. ) ;
#30 = APPROVAL ( #177, 'UNSPECIFIED' ) ;
#31 = APPLICATION_CONTEXT ( 'configuration controlled 3d designs of mechanical parts and assemblies' ) ;
#32 = VERTEX_POINT ( 'NONE', #113 ) ;
#33 = CARTESIAN_POINT ( 'NONE',  ( -3.000000000000000000, 5.000000000000000000, 0.000000000000000000 ) ) ;
#34 = CARTESIAN_POINT ( 'NONE',  ( 3.000000000000000000, 0.000000000000000000, 0.000000000000000000 ) ) ;
#35 = AXIS2_PLACEMENT_3D ( 'NONE', #155, #67, #89 ) ;
#36 = CIRCLE ( 'NONE', #238, 5.000000000000001776 ) ;
#37 = FACE_OUTER_BOUND ( 'NONE', #333, .T. ) ;
#38 = FACE_OUTER_BOUND ( 'NONE', #133, .T. ) ;
#39 = CIRCLE ( 'NONE', #66, 12.69999999999999929 ) ;
#40 = CARTESIAN_POINT ( 'NONE',  ( -1.614212418857619014, 0.000000000000000000, 0.000000000000000000 ) ) ;
#41 = DIRECTION ( 'NONE',  ( -1.000000000000000000, 0.000000000000000000, -0.000000000000000000 ) ) ;
#42 = CARTESIAN_POINT ( 'NONE',  ( -1.614212418857619014, 0.000000000000000000, 0.000000000000000000 ) ) ;
#43 = DATE_AND_TIME ( #12, #92 ) ;
#44 = AXIS2_PLACEMENT_3D ( 'NONE', #315, #223, #8 ) ;
#45 = DATE_TIME_ROLE ( 'creation_date' ) ;
#46 = CC_DESIGN_PERSON_AND_ORGANIZATION_ASSIGNMENT ( #304, #27, ( #267 ) ) ;
#47 = EDGE_LOOP ( 'NONE', ( #239, #280 ) ) ;
#48 = DATE_AND_TIME ( #302, #51 ) ;
#49 = DIRECTION ( 'NONE',  ( -1.000000000000000000, -0.000000000000000000, -0.000000000000000000 ) ) ;
#50 = PERSON_AND_ORGANIZATION ( #141, #251 ) ;
#51 = LOCAL_TIME ( 17, 6, 13.00000000000000000, #73 ) ;
#52 = CYLINDRICAL_SURFACE ( 'NONE', #178, 5.000000000000000888 ) ;
#53 = EDGE_LOOP ( 'NONE', ( #109, #162, #183, #332 ) ) ;
#54 = VERTEX_POINT ( 'NONE', #139 ) ;
#55 = FACE_BOUND ( 'NONE', #19, .T. ) ;
#56 = EDGE_CURVE ( 'NONE', #32, #84, #68, .T. ) ;
#57 = DIRECTION ( 'NONE',  ( -1.000000000000000000, -0.000000000000000000, -0.000000000000000000 ) ) ;
#58 = EDGE_CURVE ( 'NONE', #284, #219, #257, .T. ) ;
#59 = DIRECTION ( 'NONE',  ( -1.000000000000000000, -0.000000000000000000, -0.000000000000000000 ) ) ;
#60 = CIRCLE ( 'NONE', #206, 12.69999999999999929 ) ;
#61 = CC_DESIGN_PERSON_AND_ORGANIZATION_ASSIGNMENT ( #94, #65, ( #267 ) ) ;
#62 = CYLINDRICAL_SURFACE ( 'NONE', #159, 5.000000000000000888 ) ;
#63 = LINE ( 'NONE', #82, #138 ) ;
#64 = CYLINDRICAL_SURFACE ( 'NONE', #301, 12.69999999999999929 ) ;
#65 = PERSON_AND_ORGANIZATION_ROLE ( 'design_supplier' ) ;
#66 = AXIS2_PLACEMENT_3D ( 'NONE', #281, #102, #237 ) ;
#67 = DIRECTION ( 'NONE',  ( 1.000000000000000000, 0.000000000000000000, 0.000000000000000000 ) ) ;
#68 = CIRCLE ( 'NONE', #213, 5.000000000000000000 ) ;
#69 = EDGE_CURVE ( 'NONE', #84, #32, #150, .T. ) ;
#70 = PLANE ( 'NONE',  #35 ) ;
#71 = LINE ( 'NONE', #175, #21 ) ;
#72 = AXIS2_PLACEMENT_3D ( 'NONE', #252, #277, #210 ) ;
#73 = COORDINATED_UNIVERSAL_TIME_OFFSET ( 8, 0, .AHEAD. ) ;
#74 = ORIENTED_EDGE ( 'NONE', *, *, #180, .T. ) ;
#75 = DIRECTION ( 'NONE',  ( -1.000000000000000000, -0.000000000000000000, -0.000000000000000000 ) ) ;
#76 = EDGE_LOOP ( 'NONE', ( #74, #163, #231, #22 ) ) ;
#77 = CIRCLE ( 'NONE', #131, 5.000000000000000000 ) ;
#78 = CARTESIAN_POINT ( 'NONE',  ( -1.614212418857619014, 0.000000000000000000, 5.000000000000000888 ) ) ;
#79 = ORIENTED_EDGE ( 'NONE', *, *, #18, .F. ) ;
#80 =( LENGTH_UNIT ( ) NAMED_UNIT ( * ) SI_UNIT ( .MILLI., .METRE. ) );
#81 = EDGE_LOOP ( 'NONE', ( #161, #105 ) ) ;
#82 = CARTESIAN_POINT ( 'NONE',  ( -1.614212418857619014, 1.555301434917138433E-15, -12.69999999999999929 ) ) ;
#83 = DIRECTION ( 'NONE',  ( -1.000000000000000000, -0.000000000000000000, -0.000000000000000000 ) ) ;
#84 = VERTEX_POINT ( 'NONE', #107 ) ;
#85 = DIRECTION ( 'NONE',  ( 1.000000000000000000, 0.000000000000000000, 0.000000000000000000 ) ) ;
#86 = VECTOR ( 'NONE', #321, 1000.000000000000000 ) ;
#87 = CYLINDRICAL_SURFACE ( 'NONE', #167, 5.000000000000000888 ) ;
#88 = DATE_AND_TIME ( #144, #314 ) ;
#89 = DIRECTION ( 'NONE',  ( 0.000000000000000000, 0.000000000000000000, -1.000000000000000000 ) ) ;
#90 = DIRECTION ( 'NONE',  ( -1.000000000000000000, -0.000000000000000000, -0.000000000000000000 ) ) ;
#91 = PRODUCT_DEFINITION ( 'UNKNOWN', '', #267, #309 ) ;
#92 = LOCAL_TIME ( 17, 6, 13.00000000000000000, #274 ) ;
#93 = DIRECTION ( 'NONE',  ( 0.000000000000000000, 0.000000000000000000, 1.000000000000000000 ) ) ;
#94 = PERSON_AND_ORGANIZATION ( #141, #251 ) ;
#95 = ADVANCED_FACE ( 'NONE', ( #165 ), #62, .F. ) ;
#96 = CC_DESIGN_PERSON_AND_ORGANIZATION_ASSIGNMENT ( #319, #114, ( #322 ) ) ;
#97 = VERTEX_POINT ( 'NONE', #196 ) ;
#98 = CALENDAR_DATE ( 2020, 22, 12 ) ;
#99 = VERTEX_POINT ( 'NONE', #195 ) ;
#100 = DIRECTION ( 'NONE',  ( -0.000000000000000000, 0.000000000000000000, 1.000000000000000000 ) ) ;
#101 = ORIENTED_EDGE ( 'NONE', *, *, #317, .F. ) ;
#102 = DIRECTION ( 'NONE',  ( -1.000000000000000000, -0.000000000000000000, -0.000000000000000000 ) ) ;
#103 = ORIENTED_EDGE ( 'NONE', *, *, #296, .T. ) ;
#104 = CARTESIAN_POINT ( 'NONE',  ( -1.614212418857619014, 0.000000000000000000, 0.000000000000000000 ) ) ;
#105 = ORIENTED_EDGE ( 'NONE', *, *, #317, .T. ) ;
#106 = ADVANCED_FACE ( 'NONE', ( #55, #241 ), #265, .F. ) ;
#107 = CARTESIAN_POINT ( 'NONE',  ( 1.250000000000000444, 0.000000000000000000, 5.000000000000000000 ) ) ;
#108 = CARTESIAN_POINT ( 'NONE',  ( -1.614212418857619014, 0.000000000000000000, 0.000000000000000000 ) ) ;
#109 = ORIENTED_EDGE ( 'NONE', *, *, #20, .F. ) ;
#110 = DIRECTION ( 'NONE',  ( -1.000000000000000000, -0.000000000000000000, -0.000000000000000000 ) ) ;
#111 = PRODUCT_RELATED_PRODUCT_CATEGORY ( 'detail', '', ( #292 ) ) ;
#112 = UNCERTAINTY_MEASURE_WITH_UNIT (LENGTH_MEASURE( 1.000000000000000082E-05 ), #80, 'distance_accuracy_value', 'NONE');
#113 = CARTESIAN_POINT ( 'NONE',  ( 1.250000000000000444, 6.123233995736766282E-16, -5.000000000000000000 ) ) ;
#114 = PERSON_AND_ORGANIZATION_ROLE ( 'classification_officer' ) ;
#115 = AXIS2_PLACEMENT_3D ( 'NONE', #122, #174, #93 ) ;
#116 = LOCAL_TIME ( 17, 6, 13.00000000000000000, #153 ) ;
#117 = ADVANCED_FACE ( 'NONE', ( #222 ), #87, .F. ) ;
#118 = DIRECTION ( 'NONE',  ( -1.000000000000000000, 0.000000000000000000, -0.000000000000000000 ) ) ;
#119 = DATE_TIME_ROLE ( 'classification_date' ) ;
#120 = EDGE_CURVE ( 'NONE', #154, #97, #323, .T. ) ;
#121 = LINE ( 'NONE', #198, #15 ) ;
#122 = CARTESIAN_POINT ( 'NONE',  ( -3.000000000000000000, 0.000000000000000000, 0.000000000000000000 ) ) ;
#123 = EDGE_CURVE ( 'NONE', #137, #84, #243, .T. ) ;
#124 = CC_DESIGN_APPROVAL ( #136, ( #267 ) ) ;
#125 = DIRECTION ( 'NONE',  ( -1.000000000000000000, -0.000000000000000000, -0.000000000000000000 ) ) ;
#126 = PRODUCT_DEFINITION_SHAPE ( 'NONE', 'NONE',  #91 ) ;
#127 = CC_DESIGN_PERSON_AND_ORGANIZATION_ASSIGNMENT ( #151, #205, ( #91 ) ) ;
#128 = APPLICATION_PROTOCOL_DEFINITION ( 'international standard', 'config_control_design', 1994, #283 ) ;
#129 = ORIENTED_EDGE ( 'NONE', *, *, #228, .F. ) ;
#130 =( NAMED_UNIT ( * ) PLANE_ANGLE_UNIT ( ) SI_UNIT ( $, .RADIAN. ) );
#131 = AXIS2_PLACEMENT_3D ( 'NONE', #168, #290, #270 ) ;
#132 = AXIS2_PLACEMENT_3D ( 'NONE', #273, #41, #147 ) ;
#133 = EDGE_LOOP ( 'NONE', ( #214, #310 ) ) ;
#134 = APPROVAL_STATUS ( 'not_yet_approved' ) ;
#135 = DIRECTION ( 'NONE',  ( 0.000000000000000000, 0.000000000000000000, 1.000000000000000000 ) ) ;
#136 = APPROVAL ( #184, 'UNSPECIFIED' ) ;
#137 = VERTEX_POINT ( 'NONE', #4 ) ;
#138 = VECTOR ( 'NONE', #110, 1000.000000000000000 ) ;
#139 = CARTESIAN_POINT ( 'NONE',  ( -3.000000000000000000, 6.123233995736766282E-16, -5.000000000000000000 ) ) ;
#140 = CARTESIAN_POINT ( 'NONE',  ( -1.614212418857619014, 0.000000000000000000, 5.000000000000000888 ) ) ;
#141 = PERSON ( 'UNSPECIFIED', 'UNSPECIFIED', 'UNSPECIFIED', ('UNSPECIFIED'), ('UNSPECIFIED'), ('UNSPECIFIED') ) ;
#142 = CARTESIAN_POINT ( 'NONE',  ( -1.250000000000000222, 0.000000000000000000, 0.000000000000000000 ) ) ;
#143 = DIRECTION ( 'NONE',  ( 0.000000000000000000, 0.000000000000000000, 1.000000000000000000 ) ) ;
#144 = CALENDAR_DATE ( 2020, 22, 12 ) ;
#145 = CIRCLE ( 'NONE', #327, 12.69999999999999929 ) ;
#146 = CARTESIAN_POINT ( 'NONE',  ( 3.000000000000000000, 0.000000000000000000, 0.000000000000000000 ) ) ;
#147 = DIRECTION ( 'NONE',  ( -0.000000000000000000, 0.000000000000000000, 1.000000000000000000 ) ) ;
#148 = ADVANCED_FACE ( 'NONE', ( #37 ), #311, .F. ) ;
#149 = CARTESIAN_POINT ( 'NONE',  ( -1.250000000000000222, 0.000000000000000000, 5.000000000000000888 ) ) ;
#150 = CIRCLE ( 'NONE', #44, 5.000000000000000000 ) ;
#151 = PERSON_AND_ORGANIZATION ( #141, #251 ) ;
#152 = AXIS2_PLACEMENT_3D ( 'NONE', #34, #83, #2 ) ;
#153 = COORDINATED_UNIVERSAL_TIME_OFFSET ( 8, 0, .AHEAD. ) ;
#154 = VERTEX_POINT ( 'NONE', #268 ) ;
#155 = CARTESIAN_POINT ( 'NONE',  ( -1.250000000000000222, 5.000000000000000000, 0.000000000000000000 ) ) ;
#156 = EDGE_CURVE ( 'NONE', #99, #54, #77, .T. ) ;
#157 = APPROVAL_PERSON_ORGANIZATION ( #226, #30, #9 ) ;
#158 = ORIENTED_EDGE ( 'NONE', *, *, #289, .F. ) ;
#159 = AXIS2_PLACEMENT_3D ( 'NONE', #221, #59, #192 ) ;
#160 = CARTESIAN_POINT ( 'NONE',  ( 3.000000000000000000, 0.000000000000000000, 12.69999999999999929 ) ) ;
#161 = ORIENTED_EDGE ( 'NONE', *, *, #120, .T. ) ;
#162 = ORIENTED_EDGE ( 'NONE', *, *, #230, .T. ) ;
#163 = ORIENTED_EDGE ( 'NONE', *, *, #18, .T. ) ;
#164 = DIRECTION ( 'NONE',  ( -1.000000000000000000, -0.000000000000000000, -0.000000000000000000 ) ) ;
#165 = FACE_OUTER_BOUND ( 'NONE', #53, .T. ) ;
#166 = DIRECTION ( 'NONE',  ( -1.000000000000000000, -0.000000000000000000, -0.000000000000000000 ) ) ;
#167 = AXIS2_PLACEMENT_3D ( 'NONE', #108, #57, #313 ) ;
#168 = CARTESIAN_POINT ( 'NONE',  ( -3.000000000000000000, 0.000000000000000000, 0.000000000000000000 ) ) ;
#169 = FACE_OUTER_BOUND ( 'NONE', #261, .T. ) ;
#170 = ADVANCED_FACE ( 'NONE', ( #38, #246 ), #203, .F. ) ;
#171 = DIRECTION ( 'NONE',  ( -1.000000000000000000, -0.000000000000000000, -0.000000000000000000 ) ) ;
#172 = AXIS2_PLACEMENT_3D ( 'NONE', #297, #118, #100 ) ;
#173 = LOCAL_TIME ( 17, 6, 13.00000000000000000, #234 ) ;
#174 = DIRECTION ( 'NONE',  ( -1.000000000000000000, -0.000000000000000000, -0.000000000000000000 ) ) ;
#175 = CARTESIAN_POINT ( 'NONE',  ( -1.614212418857619014, 6.123233995736767268E-16, -5.000000000000000888 ) ) ;
#176 = DIRECTION ( 'NONE',  ( 0.000000000000000000, 0.000000000000000000, 1.000000000000000000 ) ) ;
#177 = APPROVAL_STATUS ( 'not_yet_approved' ) ;
#178 = AXIS2_PLACEMENT_3D ( 'NONE', #104, #28, #215 ) ;
#179 = MECHANICAL_CONTEXT ( 'NONE', #283, 'mechanical' ) ;
#180 = EDGE_CURVE ( 'NONE', #305, #186, #145, .T. ) ;
#181 = MANIFOLD_SOLID_BREP ( 'Ðý×', #316 ) ;
#182 = APPROVAL_DATE_TIME ( #208, #136 ) ;
#183 = ORIENTED_EDGE ( 'NONE', *, *, #56, .T. ) ;
#184 = APPROVAL_STATUS ( 'not_yet_approved' ) ;
#185 = EDGE_CURVE ( 'NONE', #219, #284, #224, .T. ) ;
#186 = VERTEX_POINT ( 'NONE', #320 ) ;
#187 = ADVANCED_BREP_SHAPE_REPRESENTATION ( 'Q-AZHWP-10-980-M', ( #181, #72 ), #254 ) ;
#188 = ADVANCED_FACE ( 'NONE', ( #14 ), #70, .F. ) ;
#189 = ORIENTED_EDGE ( 'NONE', *, *, #312, .F. ) ;
#190 = ORIENTED_EDGE ( 'NONE', *, *, #230, .F. ) ;
#191 = AXIS2_PLACEMENT_3D ( 'NONE', #201, #10, #299 ) ;
#192 = DIRECTION ( 'NONE',  ( 0.000000000000000000, 0.000000000000000000, 1.000000000000000000 ) ) ;
#193 = DIRECTION ( 'NONE',  ( 0.000000000000000000, 0.000000000000000000, -1.000000000000000000 ) ) ;
#194 = CC_DESIGN_DATE_AND_TIME_ASSIGNMENT ( #48, #45, ( #91 ) ) ;
#195 = CARTESIAN_POINT ( 'NONE',  ( -3.000000000000000000, 0.000000000000000000, 5.000000000000000000 ) ) ;
#196 = CARTESIAN_POINT ( 'NONE',  ( -3.000000000000000000, 1.555301434917138433E-15, -12.69999999999999929 ) ) ;
#197 = CARTESIAN_POINT ( 'NONE',  ( -3.000000000000000000, 0.000000000000000000, 0.000000000000000000 ) ) ;
#198 = CARTESIAN_POINT ( 'NONE',  ( -1.614212418857619014, 6.123233995736767268E-16, -5.000000000000000888 ) ) ;
#199 = PLANE ( 'NONE',  #132 ) ;
#200 = APPROVAL_PERSON_ORGANIZATION ( #17, #247, #229 ) ;
#201 = CARTESIAN_POINT ( 'NONE',  ( -1.250000000000000222, 0.000000000000000000, 0.000000000000000000 ) ) ;
#202 = VECTOR ( 'NONE', #3, 1000.000000000000000 ) ;
#203 = PLANE ( 'NONE',  #172 ) ;
#204 = SHAPE_DEFINITION_REPRESENTATION ( #126, #187 ) ;
#205 = PERSON_AND_ORGANIZATION_ROLE ( 'creator' ) ;
#206 = AXIS2_PLACEMENT_3D ( 'NONE', #295, #13, #176 ) ;
#207 = EDGE_LOOP ( 'NONE', ( #79, #282, #103, #101 ) ) ;
#208 = DATE_AND_TIME ( #98, #116 ) ;
#209 = EDGE_LOOP ( 'NONE', ( #190, #158, #308, #262 ) ) ;
#210 = DIRECTION ( 'NONE',  ( 1.000000000000000000, 0.000000000000000000, 0.000000000000000000 ) ) ;
#211 = DIRECTION ( 'NONE',  ( 0.000000000000000000, 0.000000000000000000, 1.000000000000000000 ) ) ;
#212 = EDGE_LOOP ( 'NONE', ( #245, #256 ) ) ;
#213 = AXIS2_PLACEMENT_3D ( 'NONE', #264, #164, #293 ) ;
#214 = ORIENTED_EDGE ( 'NONE', *, *, #180, .F. ) ;
#215 = DIRECTION ( 'NONE',  ( 0.000000000000000000, 0.000000000000000000, 1.000000000000000000 ) ) ;
#216 = ORIENTED_EDGE ( 'NONE', *, *, #156, .F. ) ;
#217 = CARTESIAN_POINT ( 'NONE',  ( 3.000000000000000000, 6.123233995736768255E-16, -5.000000000000001776 ) ) ;
#218 = APPROVAL_PERSON_ORGANIZATION ( #331, #136, #232 ) ;
#219 = VERTEX_POINT ( 'NONE', #149 ) ;
#220 = EDGE_CURVE ( 'NONE', #284, #54, #71, .T. ) ;
#221 = CARTESIAN_POINT ( 'NONE',  ( -1.614212418857619014, 0.000000000000000000, 0.000000000000000000 ) ) ;
#222 = FACE_OUTER_BOUND ( 'NONE', #209, .T. ) ;
#223 = DIRECTION ( 'NONE',  ( -1.000000000000000000, -0.000000000000000000, -0.000000000000000000 ) ) ;
#224 = CIRCLE ( 'NONE', #191, 5.000000000000000888 ) ;
#225 = DIRECTION ( 'NONE',  ( -1.000000000000000000, -0.000000000000000000, -0.000000000000000000 ) ) ;
#226 = PERSON_AND_ORGANIZATION ( #141, #251 ) ;
#227 = CARTESIAN_POINT ( 'NONE',  ( -1.614212418857619014, 0.000000000000000000, 12.69999999999999929 ) ) ;
#228 = EDGE_CURVE ( 'NONE', #54, #99, #307, .T. ) ;
#229 = APPROVAL_ROLE ( '' ) ;
#230 = EDGE_CURVE ( 'NONE', #1, #32, #121, .T. ) ;
#231 = ORIENTED_EDGE ( 'NONE', *, *, #120, .F. ) ;
#232 = APPROVAL_ROLE ( '' ) ;
#233 = EDGE_LOOP ( 'NONE', ( #286, #328, #253, #189 ) ) ;
#234 = COORDINATED_UNIVERSAL_TIME_OFFSET ( 8, 0, .AHEAD. ) ;
#235 = DIRECTION ( 'NONE',  ( -1.000000000000000000, -0.000000000000000000, -0.000000000000000000 ) ) ;
#236 = ORIENTED_EDGE ( 'NONE', *, *, #156, .T. ) ;
#237 = DIRECTION ( 'NONE',  ( 0.000000000000000000, 0.000000000000000000, 1.000000000000000000 ) ) ;
#238 = AXIS2_PLACEMENT_3D ( 'NONE', #146, #90, #211 ) ;
#239 = ORIENTED_EDGE ( 'NONE', *, *, #185, .F. ) ;
#240 = DIRECTION ( 'NONE',  ( 1.000000000000000000, 0.000000000000000000, 0.000000000000000000 ) ) ;
#241 = FACE_OUTER_BOUND ( 'NONE', #81, .T. ) ;
#242 = CC_DESIGN_APPROVAL ( #30, ( #322 ) ) ;
#243 = LINE ( 'NONE', #140, #202 ) ;
#244 = EDGE_CURVE ( 'NONE', #186, #305, #60, .T. ) ;
#245 = ORIENTED_EDGE ( 'NONE', *, *, #289, .T. ) ;
#246 = FACE_BOUND ( 'NONE', #212, .T. ) ;
#247 = APPROVAL ( #134, 'UNSPECIFIED' ) ;
#248 = LINE ( 'NONE', #227, #86 ) ;
#249 = APPROVAL_DATE_TIME ( #88, #30 ) ;
#250 = FACE_OUTER_BOUND ( 'NONE', #76, .T. ) ;
#251 = ORGANIZATION ( 'UNSPECIFIED', 'UNSPECIFIED', '' ) ;
#252 = CARTESIAN_POINT ( 'NONE',  ( 0.000000000000000000, 0.000000000000000000, 0.000000000000000000 ) ) ;
#253 = ORIENTED_EDGE ( 'NONE', *, *, #228, .T. ) ;
#254 =( GEOMETRIC_REPRESENTATION_CONTEXT ( 3 ) GLOBAL_UNCERTAINTY_ASSIGNED_CONTEXT ( ( #112 ) ) GLOBAL_UNIT_ASSIGNED_CONTEXT ( ( #80, #130, #326 ) ) REPRESENTATION_CONTEXT ( 'NONE', 'WORKASPACE' ) );
#255 = DIRECTION ( 'NONE',  ( 0.000000000000000000, 0.000000000000000000, 1.000000000000000000 ) ) ;
#256 = ORIENTED_EDGE ( 'NONE', *, *, #20, .T. ) ;
#257 = CIRCLE ( 'NONE', #269, 5.000000000000000888 ) ;
#258 = APPROVAL_DATE_TIME ( #279, #247 ) ;
#259 = FACE_OUTER_BOUND ( 'NONE', #233, .T. ) ;
#260 = ADVANCED_FACE ( 'NONE', ( #275 ), #64, .T. ) ;
#261 = EDGE_LOOP ( 'NONE', ( #29, #285 ) ) ;
#262 = ORIENTED_EDGE ( 'NONE', *, *, #69, .T. ) ;
#263 = AXIS2_PLACEMENT_3D ( 'NONE', #288, #166, #6 ) ;
#264 = CARTESIAN_POINT ( 'NONE',  ( 1.250000000000000444, 0.000000000000000000, 0.000000000000000000 ) ) ;
#265 = PLANE ( 'NONE',  #298 ) ;
#266 = DIRECTION ( 'NONE',  ( -1.000000000000000000, -0.000000000000000000, -0.000000000000000000 ) ) ;
#267 = PRODUCT_DEFINITION_FORMATION_WITH_SPECIFIED_SOURCE ( 'ANY', '', #292, .NOT_KNOWN. ) ;
#268 = CARTESIAN_POINT ( 'NONE',  ( -3.000000000000000000, 0.000000000000000000, 12.69999999999999929 ) ) ;
#269 = AXIS2_PLACEMENT_3D ( 'NONE', #142, #240, #193 ) ;
#270 = DIRECTION ( 'NONE',  ( 0.000000000000000000, 0.000000000000000000, 1.000000000000000000 ) ) ;
#271 = CYLINDRICAL_SURFACE ( 'NONE', #329, 12.69999999999999929 ) ;
#272 = ADVANCED_FACE ( 'NONE', ( #250 ), #271, .T. ) ;
#273 = CARTESIAN_POINT ( 'NONE',  ( 1.250000000000000222, 5.000000000000000000, 0.000000000000000000 ) ) ;
#274 = COORDINATED_UNIVERSAL_TIME_OFFSET ( 8, 0, .AHEAD. ) ;
#275 = FACE_OUTER_BOUND ( 'NONE', #207, .T. ) ;
#276 = COORDINATED_UNIVERSAL_TIME_OFFSET ( 8, 0, .AHEAD. ) ;
#277 = DIRECTION ( 'NONE',  ( 0.000000000000000000, 0.000000000000000000, 1.000000000000000000 ) ) ;
#278 = ORIENTED_EDGE ( 'NONE', *, *, #220, .F. ) ;
#279 = DATE_AND_TIME ( #300, #173 ) ;
#280 = ORIENTED_EDGE ( 'NONE', *, *, #58, .F. ) ;
#281 = CARTESIAN_POINT ( 'NONE',  ( -3.000000000000000000, 0.000000000000000000, 0.000000000000000000 ) ) ;
#282 = ORIENTED_EDGE ( 'NONE', *, *, #244, .T. ) ;
#283 = APPLICATION_CONTEXT ( 'configuration controlled 3d designs of mechanical parts and assemblies' ) ;
#284 = VERTEX_POINT ( 'NONE', #25 ) ;
#285 = ORIENTED_EDGE ( 'NONE', *, *, #56, .F. ) ;
#286 = ORIENTED_EDGE ( 'NONE', *, *, #185, .T. ) ;
#287 = DIRECTION ( 'NONE',  ( 0.000000000000000000, 0.000000000000000000, -1.000000000000000000 ) ) ;
#288 = CARTESIAN_POINT ( 'NONE',  ( -1.614212418857619014, 0.000000000000000000, 0.000000000000000000 ) ) ;
#289 = EDGE_CURVE ( 'NONE', #137, #1, #36, .T. ) ;
#290 = DIRECTION ( 'NONE',  ( -1.000000000000000000, -0.000000000000000000, -0.000000000000000000 ) ) ;
#291 = CIRCLE ( 'NONE', #152, 5.000000000000001776 ) ;
#292 = PRODUCT ( 'Q-AZHWP-10-980-M', 'Q-AZHWP-10-980-M', '', ( #179 ) ) ;
#293 = DIRECTION ( 'NONE',  ( 0.000000000000000000, 0.000000000000000000, 1.000000000000000000 ) ) ;
#294 = ADVANCED_FACE ( 'NONE', ( #169 ), #199, .F. ) ;
#295 = CARTESIAN_POINT ( 'NONE',  ( 3.000000000000000000, 0.000000000000000000, 0.000000000000000000 ) ) ;
#296 = EDGE_CURVE ( 'NONE', #305, #154, #248, .T. ) ;
#297 = CARTESIAN_POINT ( 'NONE',  ( 3.000000000000000000, 12.69999999999999929, 0.000000000000000000 ) ) ;
#298 = AXIS2_PLACEMENT_3D ( 'NONE', #33, #85, #287 ) ;
#299 = DIRECTION ( 'NONE',  ( 0.000000000000000000, 0.000000000000000000, -1.000000000000000000 ) ) ;
#300 = CALENDAR_DATE ( 2020, 22, 12 ) ;
#301 = AXIS2_PLACEMENT_3D ( 'NONE', #42, #171, #135 ) ;
#302 = CALENDAR_DATE ( 2020, 22, 12 ) ;
#303 = ORIENTED_EDGE ( 'NONE', *, *, #312, .T. ) ;
#304 = PERSON_AND_ORGANIZATION ( #141, #251 ) ;
#305 = VERTEX_POINT ( 'NONE', #160 ) ;
#306 = APPLICATION_PROTOCOL_DEFINITION ( 'international standard', 'config_control_design', 1994, #31 ) ;
#307 = CIRCLE ( 'NONE', #115, 5.000000000000000000 ) ;
#308 = ORIENTED_EDGE ( 'NONE', *, *, #123, .T. ) ;
#309 = DESIGN_CONTEXT ( 'detailed design', #31, 'design' ) ;
#310 = ORIENTED_EDGE ( 'NONE', *, *, #244, .F. ) ;
#311 = CYLINDRICAL_SURFACE ( 'NONE', #263, 5.000000000000000888 ) ;
#312 = EDGE_CURVE ( 'NONE', #219, #99, #335, .T. ) ;
#313 = DIRECTION ( 'NONE',  ( 0.000000000000000000, 0.000000000000000000, 1.000000000000000000 ) ) ;
#314 = LOCAL_TIME ( 17, 6, 13.00000000000000000, #276 ) ;
#315 = CARTESIAN_POINT ( 'NONE',  ( 1.250000000000000444, 0.000000000000000000, 0.000000000000000000 ) ) ;
#316 = CLOSED_SHELL ( 'NONE', ( #272, #324, #95, #294, #117, #148, #106, #260, #170, #188 ) ) ;
#317 = EDGE_CURVE ( 'NONE', #97, #154, #39, .T. ) ;
#318 = DIRECTION ( 'NONE',  ( 0.000000000000000000, 0.000000000000000000, 1.000000000000000000 ) ) ;
#319 = PERSON_AND_ORGANIZATION ( #141, #251 ) ;
#320 = CARTESIAN_POINT ( 'NONE',  ( 3.000000000000000000, 1.555301434917138433E-15, -12.69999999999999929 ) ) ;
#321 = DIRECTION ( 'NONE',  ( -1.000000000000000000, -0.000000000000000000, -0.000000000000000000 ) ) ;
#322 = SECURITY_CLASSIFICATION ( '', '', #325 ) ;
#323 = CIRCLE ( 'NONE', #5, 12.69999999999999929 ) ;
#324 = ADVANCED_FACE ( 'NONE', ( #259 ), #52, .F. ) ;
#325 = SECURITY_CLASSIFICATION_LEVEL ( 'unclassified' ) ;
#326 =( NAMED_UNIT ( * ) SI_UNIT ( $, .STERADIAN. ) SOLID_ANGLE_UNIT ( ) );
#327 = AXIS2_PLACEMENT_3D ( 'NONE', #11, #225, #318 ) ;
#328 = ORIENTED_EDGE ( 'NONE', *, *, #220, .T. ) ;
#329 = AXIS2_PLACEMENT_3D ( 'NONE', #40, #49, #255 ) ;
#330 = CC_DESIGN_PERSON_AND_ORGANIZATION_ASSIGNMENT ( #50, #23, ( #292 ) ) ;
#331 = PERSON_AND_ORGANIZATION ( #141, #251 ) ;
#332 = ORIENTED_EDGE ( 'NONE', *, *, #123, .F. ) ;
#333 = EDGE_LOOP ( 'NONE', ( #278, #26, #303, #236 ) ) ;
#334 = CC_DESIGN_APPROVAL ( #247, ( #91 ) ) ;
#335 = LINE ( 'NONE', #78, #24 ) ;
ENDSEC;
END-ISO-10303-21;
